  0
SECTION
  2
HEADER
  9
$ACADVER
  1
AC1014
  9
$ACADMAINTVER
 70
     0
  9
$DWGCODEPAGE
  3
ANSI_1250
  9
$INSBASE
 10
0.0
 20
0.0
 30
0.0
  9
$EXTMIN
 10
-65.0
 20
-65.0
 30
0.0
  9
$EXTMAX
 10
65.0
 20
65.0
 30
395.0
  9
$LIMMIN
 10
0.0
 20
0.0
  9
$LIMMAX
 10
420.0
 20
297.0
  9
$ORTHOMODE
 70
     0
  9
$REGENMODE
 70
     1
  9
$FILLMODE
 70
     0
  9
$QTEXTMODE
 70
     0
  9
$MIRRTEXT
 70
     1
  9
$DRAGMODE
 70
     2
  9
$LTSCALE
 40
1.0
  9
$OSMODE
 70
     8
  9
$ATTMODE
 70
     2
  9
$TEXTSIZE
 40
100.0
  9
$TRACEWID
 40
1.0
  9
$TEXTSTYLE
  7
ROMANS
  9
$CLAYER
  8
0
  9
$CELTYPE
  6
CONTINUOUS
  9
$CECOLOR
 62
   256
  9
$CELTSCALE
 40
1.0
  9
$DELOBJ
 70
     1
  9
$DISPSILH
 70
     0
  9
$DIMSCALE
 40
50.0
  9
$DIMASZ
 40
2.0
  9
$DIMEXO
 40
0.625
  9
$DIMDLI
 40
3.75
  9
$DIMRND
 40
1.0
  9
$DIMDLE
 40
0.0
  9
$DIMEXE
 40
1.0
  9
$DIMTP
 40
0.0
  9
$DIMTM
 40
0.0
  9
$DIMTXT
 40
2.5
  9
$DIMCEN
 40
-100.0
  9
$DIMTSZ
 40
0.0
  9
$DIMTOL
 70
     0
  9
$DIMLIM
 70
     0
  9
$DIMTIH
 70
     0
  9
$DIMTOH
 70
     0
  9
$DIMSE1
 70
     0
  9
$DIMSE2
 70
     0
  9
$DIMTAD
 70
     1
  9
$DIMZIN
 70
     8
  9
$DIMBLK
  1

  9
$DIMASO
 70
     1
  9
$DIMSHO
 70
     1
  9
$DIMPOST
  1

  9
$DIMAPOST
  1

  9
$DIMALT
 70
     0
  9
$DIMALTD
 70
     4
  9
$DIMALTF
 40
0.0394
  9
$DIMLFAC
 40
1.0
  9
$DIMTOFL
 70
     1
  9
$DIMTVP
 40
2.0
  9
$DIMTIX
 70
     0
  9
$DIMSOXD
 70
     0
  9
$DIMSAH
 70
     1
  9
$DIMBLK1
  1
_OBLIQUE
  9
$DIMBLK2
  1
_OBLIQUE
  9
$DIMSTYLE
  2
STANEK
  9
$DIMCLRD
 70
     4
  9
$DIMCLRE
 70
     4
  9
$DIMCLRT
 70
     4
  9
$DIMTFAC
 40
2.2
  9
$DIMGAP
 40
0.625
  9
$DIMJUST
 70
     0
  9
$DIMSD1
 70
     0
  9
$DIMSD2
 70
     0
  9
$DIMTOLJ
 70
     1
  9
$DIMTZIN
 70
     8
  9
$DIMALTZ
 70
     8
  9
$DIMALTTZ
 70
     8
  9
$DIMFIT
 70
     5
  9
$DIMUPT
 70
     0
  9
$DIMUNIT
 70
     2
  9
$DIMDEC
 70
     4
  9
$DIMTDEC
 70
     4
  9
$DIMALTU
 70
     2
  9
$DIMALTTD
 70
     4
  9
$DIMTXSTY
  7
ROMANS
  9
$DIMAUNIT
 70
     0
  9
$LUNITS
 70
     2
  9
$LUPREC
 70
     4
  9
$SKETCHINC
 40
1.0
  9
$FILLETRAD
 40
10.0
  9
$AUNITS
 70
     0
  9
$AUPREC
 70
     0
  9
$MENU
  1
.
  9
$ELEVATION
 40
0.0
  9
$PELEVATION
 40
0.0
  9
$THICKNESS
 40
0.0
  9
$LIMCHECK
 70
     0
  9
$BLIPMODE
 70
     0
  9
$CHAMFERA
 40
10.0
  9
$CHAMFERB
 40
10.0
  9
$CHAMFERC
 40
0.0
  9
$CHAMFERD
 40
0.0
  9
$SKPOLY
 70
     0
  9
$TDCREATE
 40
2450990.465911806
  9
$TDUPDATE
 40
2453315.464212292
  9
$TDINDWG
 40
5.3101891782
  9
$TDUSRTIMER
 40
5.3101891782
  9
$USRTIMER
 70
     1
  9
$ANGBASE
 50
0.0
  9
$ANGDIR
 70
     0
  9
$PDMODE
 70
     3
  9
$PDSIZE
 40
25.0
  9
$PLINEWID
 40
0.0
  9
$COORDS
 70
     1
  9
$SPLFRAME
 70
     0
  9
$SPLINETYPE
 70
     6
  9
$SPLINESEGS
 70
     8
  9
$ATTDIA
 70
     0
  9
$ATTREQ
 70
     1
  9
$HANDLING
 70
     1
  9
$HANDSEED
  5
C4
  9
$SURFTAB1
 70
    12
  9
$SURFTAB2
 70
    12
  9
$SURFTYPE
 70
     6
  9
$SURFU
 70
     6
  9
$SURFV
 70
     6
  9
$UCSNAME
  2

  9
$UCSORG
 10
0.0
 20
0.0
 30
0.0
  9
$UCSXDIR
 10
1.0
 20
0.0
 30
0.0
  9
$UCSYDIR
 10
0.0
 20
1.0
 30
0.0
  9
$PUCSNAME
  2

  9
$PUCSORG
 10
0.0
 20
0.0
 30
0.0
  9
$PUCSXDIR
 10
1.0
 20
0.0
 30
0.0
  9
$PUCSYDIR
 10
0.0
 20
1.0
 30
0.0
  9
$USERI1
 70
    50
  9
$USERI2
 70
  1094
  9
$USERI3
 70
     2
  9
$USERI4
 70
     2
  9
$USERI5
 70
     6
  9
$USERR1
 40
281.0
  9
$USERR2
 40
321.0
  9
$USERR3
 40
0.0
  9
$USERR4
 40
0.0
  9
$USERR5
 40
0.0
  9
$WORLDVIEW
 70
     1
  9
$SHADEDGE
 70
     3
  9
$SHADEDIF
 70
    70
  9
$TILEMODE
 70
     1
  9
$MAXACTVP
 70
    48
  9
$PINSBASE
 10
0.0
 20
0.0
 30
0.0
  9
$PLIMCHECK
 70
     0
  9
$PEXTMIN
 10
1.000000E+20
 20
1.000000E+20
 30
1.000000E+20
  9
$PEXTMAX
 10
-1.000000E+20
 20
-1.000000E+20
 30
-1.000000E+20
  9
$PLIMMIN
 10
0.0
 20
0.0
  9
$PLIMMAX
 10
420.0
 20
297.0
  9
$UNITMODE
 70
     0
  9
$VISRETAIN
 70
     1
  9
$PLINEGEN
 70
     0
  9
$PSLTSCALE
 70
     1
  9
$TREEDEPTH
 70
  3020
  9
$PICKSTYLE
 70
     1
  9
$CMLSTYLE
  2
STANDARD
  9
$CMLJUST
 70
     0
  9
$CMLSCALE
 40
1.0
  9
$PROXYGRAPHICS
 70
     1
  9
$MEASUREMENT
 70
     0
  0
ENDSEC
  0
SECTION
  2
CLASSES
  0
CLASS
  1
DICTIONARYVAR
  2
AcDbDictionaryVar
  3
"AutoCAD"
 90
        0
280
     0
281
     0
  0
CLASS
  1
LWPOLYLINE
  2
AcDbPolyline
  3
"AutoCAD"
 90
        0
280
     0
281
     1
  0
ENDSEC
  0
SECTION
  2
TABLES
  0
TABLE
  2
VPORT
  5
12
100
AcDbSymbolTable
 70
     2
  0
VPORT
  5
C3
100
AcDbSymbolTableRecord
100
AcDbViewportTableRecord
  2
*ACTIVE
 70
     0
 10
0.0
 20
0.0
 11
1.0
 21
1.0
 12
-0.116945
 22
212.778879
 13
0.0
 23
0.0
 14
10.0
 24
10.0
 15
10.0
 25
10.0
 16
1.847927
 26
-4.051181
 36
1.147259
 17
0.0
 27
0.0
 37
0.0
 40
473.52076
 41
1.523346
 42
50.0
 43
0.0
 44
0.0
 50
0.0
 51
0.0
 71
     0
 72
   100
 73
     1
 74
     1
 75
     0
 76
     0
 77
     0
 78
     0
  0
ENDTAB
  0
TABLE
  2
LTYPE
  5
D
100
AcDbSymbolTable
 70
     2
  0
LTYPE
  5
E
100
AcDbSymbolTableRecord
100
AcDbLinetypeTableRecord
  2
BYBLOCK
 70
     0
  3

 72
    65
 73
     0
 40
0.0
  0
LTYPE
  5
F
100
AcDbSymbolTableRecord
100
AcDbLinetypeTableRecord
  2
BYLAYER
 70
     0
  3

 72
    65
 73
     0
 40
0.0
  0
LTYPE
  5
5
100
AcDbSymbolTableRecord
100
AcDbLinetypeTableRecord
  2
CONTINUOUS
 70
     0
  3
Solid line
 72
    65
 73
     0
 40
0.0
  0
LTYPE
  5
27
100
AcDbSymbolTableRecord
100
AcDbLinetypeTableRecord
  2
CENTER
 70
     0
  3
Center ____ _ ____ _ ____ _ ____ _ ____ _ ____
 72
    65
 73
     4
 40
50.8
 49
31.75
 74
     0
 49
-6.35
 74
     0
 49
6.35
 74
     0
 49
-6.35
 74
     0
  0
ENDTAB
  0
TABLE
  2
LAYER
  5
A
100
AcDbSymbolTable
 70
     1
  0
LAYER
  5
4
100
AcDbSymbolTableRecord
100
AcDbLayerTableRecord
  2
0
 70
     0
 62
     7
  6
CONTINUOUS
  0
ENDTAB
  0
TABLE
  2
STYLE
  5
B
100
AcDbSymbolTable
 70
     2
  0
STYLE
  5
C
100
AcDbSymbolTableRecord
100
AcDbTextStyleTableRecord
  2
STANDARD
 70
     0
 40
0.0
 41
0.8
 50
0.0
 71
     0
 42
2.5
  3
txt.shx
  4

  0
STYLE
  5
1C
100
AcDbSymbolTableRecord
100
AcDbTextStyleTableRecord
  2
ROMANS
 70
     0
 40
100.0
 41
0.8
 50
0.0
 71
     0
 42
100.0
  3
romans.shx
  4

  0
ENDTAB
  0
TABLE
  2
VIEW
  5
10
100
AcDbSymbolTable
 70
     0
  0
ENDTAB
  0
TABLE
  2
UCS
  5
11
100
AcDbSymbolTable
 70
     0
  0
ENDTAB
  0
TABLE
  2
APPID
  5
14
100
AcDbSymbolTable
 70
     1
  0
APPID
  5
15
100
AcDbSymbolTableRecord
100
AcDbRegAppTableRecord
  2
ACAD
 70
     0
  0
ENDTAB
  0
TABLE
  2
DIMSTYLE
  5
16
100
AcDbSymbolTable
 70
     1
  0
DIMSTYLE
105
1E
100
AcDbSymbolTableRecord
100
AcDbDimStyleTableRecord
  2
STANEK
 70
     0
  3

  4

  5

  6
_OBLIQUE
  7
_OBLIQUE
 40
0.0
 41
2.0
 42
0.625
 43
3.75
 44
1.0
 45
1.0
 46
0.0
 47
0.0
 48
0.0
140
2.2
141
-100.0
142
0.0
143
0.0394
144
2.2
145
2.0
146
2.2
147
0.625
 71
     0
 72
     0
 73
     0
 74
     0
 75
     0
 76
     0
 77
     1
 78
     8
170
     0
171
     4
172
     1
173
     1
174
     0
175
     0
176
     1
177
     1
178
     1
270
     2
271
     4
272
     4
273
     2
274
     4
340
1C
275
     0
280
     0
281
     0
282
     0
283
     1
284
     8
285
     8
286
     8
287
     5
288
     0
  0
ENDTAB
  0
TABLE
  2
BLOCK_RECORD
  5
1
100
AcDbSymbolTable
 70
     1
  0
BLOCK_RECORD
  5
2
100
AcDbSymbolTableRecord
100
AcDbBlockTableRecord
  2
*MODEL_SPACE
  0
BLOCK_RECORD
  5
7
100
AcDbSymbolTableRecord
100
AcDbBlockTableRecord
  2
*PAPER_SPACE
  0
BLOCK_RECORD
  5
1F
100
AcDbSymbolTableRecord
100
AcDbBlockTableRecord
  2
_OBLIQUE
  0
ENDTAB
  0
ENDSEC
  0
SECTION
  2
BLOCKS
  0
BLOCK
  5
3
100
AcDbEntity
  8
0
 62
     1
100
AcDbBlockBegin
  2
*MODEL_SPACE
 70
     0
 10
0.0
 20
0.0
 30
0.0
  3
*MODEL_SPACE
  1

  0
ENDBLK
  5
6
100
AcDbEntity
  8
0
 62
     1
100
AcDbBlockEnd
  0
BLOCK
  5
8
100
AcDbEntity
 67
     1
  8
0
 62
     1
100
AcDbBlockBegin
  2
*PAPER_SPACE
 70
     0
 10
0.0
 20
0.0
 30
0.0
  3
*PAPER_SPACE
  1

  0
ENDBLK
  5
9
100
AcDbEntity
 67
     1
  8
0
 62
     1
100
AcDbBlockEnd
  0
BLOCK
  5
21
100
AcDbEntity
  8
0
100
AcDbBlockBegin
  2
_OBLIQUE
 70
     0
 10
0.0
 20
0.0
 30
0.0
  3
_OBLIQUE
  1

  0
LINE
  5
20
100
AcDbEntity
  8
0
  6
BYBLOCK
 62
     0
100
AcDbLine
 10
-0.5
 20
-0.5
 30
0.0
 11
0.5
 21
0.5
 31
0.0
  0
ENDBLK
  5
22
100
AcDbEntity
  8
0
100
AcDbBlockEnd
  0
ENDSEC
  0
SECTION
  2
ENTITIES
  0
POINT
  5
5B
100
AcDbEntity
  8
0
  6
CONTINUOUS
100
AcDbPoint
 10
0.0
 20
0.0
 30
0.0
  0
CIRCLE
  5
7F
100
AcDbEntity
  8
0
  6
CONTINUOUS
100
AcDbCircle
 39
40.0
 10
50.0
 20
-50.0
 30
355.0
 40
5.0
  0
CIRCLE
  5
80
100
AcDbEntity
  8
0
  6
CONTINUOUS
100
AcDbCircle
 39
40.0
 10
-50.0
 20
-50.0
 30
355.0
 40
5.0
  0
POINT
  5
81
100
AcDbEntity
  8
0
  6
CONTINUOUS
100
AcDbPoint
 10
0.0
 20
0.0
 30
380.0
  0
LINE
  5
8F
100
AcDbEntity
  8
0
  6
CONTINUOUS
100
AcDbLine
 10
0.0
 20
0.0
 30
0.0
 11
0.0
 21
0.0
 31
380.0
  0
LINE
  5
90
100
AcDbEntity
  8
0
  6
CONTINUOUS
100
AcDbLine
 39
330.0
 10
-60.0
 20
60.0
 30
25.0
 11
-60.0
 21
-60.0
 31
25.0
  0
LINE
  5
91
100
AcDbEntity
  8
0
  6
CONTINUOUS
100
AcDbLine
 39
330.0
 10
-60.0
 20
-60.0
 30
25.0
 11
60.0
 21
-60.0
 31
25.0
  0
LINE
  5
92
100
AcDbEntity
  8
0
  6
CONTINUOUS
100
AcDbLine
 39
330.0
 10
60.0
 20
-60.0
 30
25.0
 11
60.0
 21
60.0
 31
25.0
  0
LINE
  5
93
100
AcDbEntity
  8
0
  6
CONTINUOUS
100
AcDbLine
 39
330.0
 10
60.0
 20
60.0
 30
25.0
 11
-60.0
 21
60.0
 31
25.0
  0
CIRCLE
  5
94
100
AcDbEntity
  8
0
  6
CONTINUOUS
100
AcDbCircle
 10
0.0
 20
190.0
 30
65.0
 40
27.0
210
1.0
220
0.0
230
-0.0000000000000002
  0
LINE
  5
95
100
AcDbEntity
  8
0
  6
CENTER
100
AcDbLine
 10
65.0
 20
0.0
 30
172.72
 11
65.0
 21
0.0
 31
207.28
210
1.0
220
0.0
230
-0.0000000000000002
  0
LINE
  5
96
100
AcDbEntity
  8
0
  6
CENTER
100
AcDbLine
 10
65.0
 20
17.28
 30
190.0
 11
65.0
 21
-17.28
 31
190.0
210
1.0
220
0.0
230
-0.0000000000000002
  0
CIRCLE
  5
97
100
AcDbEntity
  8
0
  6
CONTINUOUS
100
AcDbCircle
 10
0.0
 20
190.0
 30
65.0
 40
27.0
210
0.0000000000000001
220
1.0
230
-0.0000000000000002
  0
LINE
  5
98
100
AcDbEntity
  8
0
  6
CENTER
100
AcDbLine
 10
0.0
 20
65.0
 30
172.72
 11
0.0
 21
65.0
 31
207.28
210
0.0000000000000001
220
1.0
230
-0.0000000000000002
  0
LINE
  5
99
100
AcDbEntity
  8
0
  6
CENTER
100
AcDbLine
 10
-17.28
 20
65.0
 30
190.0
 11
17.28
 21
65.0
 31
190.0
210
0.0000000000000001
220
1.0
230
-0.0000000000000002
  0
CIRCLE
  5
9A
100
AcDbEntity
  8
0
  6
CONTINUOUS
100
AcDbCircle
 10
0.0
 20
190.0
 30
65.0
 40
27.0
210
-1.0
220
0.0000000000000001
230
-0.0000000000000002
  0
LINE
  5
9B
100
AcDbEntity
  8
0
  6
CENTER
100
AcDbLine
 10
-65.0
 20
0.0
 30
172.72
 11
-65.0
 21
0.0
 31
207.28
210
-1.0
220
0.0000000000000001
230
-0.0000000000000002
  0
LINE
  5
9C
100
AcDbEntity
  8
0
  6
CENTER
100
AcDbLine
 10
-65.0
 20
-17.28
 30
190.0
 11
-65.0
 21
17.28
 31
190.0
210
-1.0
220
0.0000000000000001
230
-0.0000000000000002
  0
CIRCLE
  5
9D
100
AcDbEntity
  8
0
  6
CONTINUOUS
100
AcDbCircle
 10
0.0
 20
190.0
 30
65.0
 40
27.0
210
-0.0000000000000002
220
-1.0
230
-0.0000000000000002
  0
LINE
  5
9E
100
AcDbEntity
  8
0
  6
CENTER
100
AcDbLine
 10
0.0
 20
-65.0
 30
172.72
 11
0.0
 21
-65.0
 31
207.28
210
-0.0000000000000002
220
-1.0
230
-0.0000000000000002
  0
LINE
  5
9F
100
AcDbEntity
  8
0
  6
CENTER
100
AcDbLine
 10
17.28
 20
-65.0
 30
190.0
 11
-17.28
 21
-65.0
 31
190.0
210
-0.0000000000000002
220
-1.0
230
-0.0000000000000002
  0
3DFACE
  5
A0
100
AcDbEntity
  8
0
  6
CONTINUOUS
100
AcDbFace
 10
50.0
 20
0.0
 30
0.0
 11
50.0
 21
0.0
 31
25.0
 12
43.30127
 22
25.0
 32
25.0
 13
43.30127
 23
25.0
 33
0.0
  0
3DFACE
  5
A1
100
AcDbEntity
  8
0
  6
CONTINUOUS
100
AcDbFace
 10
43.30127
 20
25.0
 30
0.0
 11
43.30127
 21
25.0
 31
25.0
 12
25.0
 22
43.30127
 32
25.0
 13
25.0
 23
43.30127
 33
0.0
  0
3DFACE
  5
A2
100
AcDbEntity
  8
0
  6
CONTINUOUS
100
AcDbFace
 10
25.0
 20
43.30127
 30
0.0
 11
25.0
 21
43.30127
 31
25.0
 12
0.0
 22
50.0
 32
25.0
 13
0.0
 23
50.0
 33
0.0
  0
3DFACE
  5
A3
100
AcDbEntity
  8
0
  6
CONTINUOUS
100
AcDbFace
 10
0.0
 20
50.0
 30
0.0
 11
0.0
 21
50.0
 31
25.0
 12
-25.0
 22
43.30127
 32
25.0
 13
-25.0
 23
43.30127
 33
0.0
  0
3DFACE
  5
A4
100
AcDbEntity
  8
0
  6
CONTINUOUS
100
AcDbFace
 10
-25.0
 20
43.30127
 30
0.0
 11
-25.0
 21
43.30127
 31
25.0
 12
-43.30127
 22
25.0
 32
25.0
 13
-43.30127
 23
25.0
 33
0.0
  0
3DFACE
  5
A5
100
AcDbEntity
  8
0
  6
CONTINUOUS
100
AcDbFace
 10
-43.30127
 20
25.0
 30
0.0
 11
-43.30127
 21
25.0
 31
25.0
 12
-50.0
 22
0.0
 32
25.0
 13
-50.0
 23
0.0
 33
0.0
  0
3DFACE
  5
A6
100
AcDbEntity
  8
0
  6
CONTINUOUS
100
AcDbFace
 10
-50.0
 20
0.0
 30
0.0
 11
-50.0
 21
0.0
 31
25.0
 12
-43.30127
 22
-25.0
 32
25.0
 13
-43.30127
 23
-25.0
 33
0.0
  0
3DFACE
  5
A7
100
AcDbEntity
  8
0
  6
CONTINUOUS
100
AcDbFace
 10
-43.30127
 20
-25.0
 30
0.0
 11
-43.30127
 21
-25.0
 31
25.0
 12
-25.0
 22
-43.30127
 32
25.0
 13
-25.0
 23
-43.30127
 33
0.0
  0
3DFACE
  5
A8
100
AcDbEntity
  8
0
  6
CONTINUOUS
100
AcDbFace
 10
-25.0
 20
-43.30127
 30
0.0
 11
-25.0
 21
-43.30127
 31
25.0
 12
0.0
 22
-50.0
 32
25.0
 13
0.0
 23
-50.0
 33
0.0
  0
3DFACE
  5
A9
100
AcDbEntity
  8
0
  6
CONTINUOUS
100
AcDbFace
 10
0.0
 20
-50.0
 30
0.0
 11
0.0
 21
-50.0
 31
25.0
 12
25.0
 22
-43.30127
 32
25.0
 13
25.0
 23
-43.30127
 33
0.0
  0
3DFACE
  5
AA
100
AcDbEntity
  8
0
  6
CONTINUOUS
100
AcDbFace
 10
25.0
 20
-43.30127
 30
0.0
 11
25.0
 21
-43.30127
 31
25.0
 12
43.30127
 22
-25.0
 32
25.0
 13
43.30127
 23
-25.0
 33
0.0
  0
3DFACE
  5
AB
100
AcDbEntity
  8
0
  6
CONTINUOUS
100
AcDbFace
 10
43.30127
 20
-25.0
 30
0.0
 11
43.30127
 21
-25.0
 31
25.0
 12
50.0
 22
0.0
 32
25.0
 13
50.0
 23
0.0
 33
0.0
  0
LINE
  5
AD
100
AcDbEntity
  8
0
  6
CONTINUOUS
100
AcDbLine
 10
50.0
 20
0.0
 30
0.0
 11
50.0
 21
0.0
 31
25.0
  0
3DFACE
  5
AE
100
AcDbEntity
  8
0
  6
CONTINUOUS
100
AcDbFace
 10
50.0
 20
0.0
 30
355.0
 11
50.0
 21
0.0
 31
380.0
 12
43.30127
 22
25.0
 32
380.0
 13
43.30127
 23
25.0
 33
355.0
  0
3DFACE
  5
AF
100
AcDbEntity
  8
0
  6
CONTINUOUS
100
AcDbFace
 10
43.30127
 20
25.0
 30
355.0
 11
43.30127
 21
25.0
 31
380.0
 12
25.0
 22
43.30127
 32
380.0
 13
25.0
 23
43.30127
 33
355.0
  0
3DFACE
  5
B0
100
AcDbEntity
  8
0
  6
CONTINUOUS
100
AcDbFace
 10
25.0
 20
43.30127
 30
355.0
 11
25.0
 21
43.30127
 31
380.0
 12
0.0
 22
50.0
 32
380.0
 13
0.0
 23
50.0
 33
355.0
  0
3DFACE
  5
B1
100
AcDbEntity
  8
0
  6
CONTINUOUS
100
AcDbFace
 10
0.0
 20
50.0
 30
355.0
 11
0.0
 21
50.0
 31
380.0
 12
-25.0
 22
43.30127
 32
380.0
 13
-25.0
 23
43.30127
 33
355.0
  0
3DFACE
  5
B2
100
AcDbEntity
  8
0
  6
CONTINUOUS
100
AcDbFace
 10
-25.0
 20
43.30127
 30
355.0
 11
-25.0
 21
43.30127
 31
380.0
 12
-43.30127
 22
25.0
 32
380.0
 13
-43.30127
 23
25.0
 33
355.0
  0
3DFACE
  5
B3
100
AcDbEntity
  8
0
  6
CONTINUOUS
100
AcDbFace
 10
-43.30127
 20
25.0
 30
355.0
 11
-43.30127
 21
25.0
 31
380.0
 12
-50.0
 22
0.0
 32
380.0
 13
-50.0
 23
0.0
 33
355.0
  0
3DFACE
  5
B4
100
AcDbEntity
  8
0
  6
CONTINUOUS
100
AcDbFace
 10
-50.0
 20
0.0
 30
355.0
 11
-50.0
 21
0.0
 31
380.0
 12
-43.30127
 22
-25.0
 32
380.0
 13
-43.30127
 23
-25.0
 33
355.0
  0
3DFACE
  5
B5
100
AcDbEntity
  8
0
  6
CONTINUOUS
100
AcDbFace
 10
-43.30127
 20
-25.0
 30
355.0
 11
-43.30127
 21
-25.0
 31
380.0
 12
-25.0
 22
-43.30127
 32
380.0
 13
-25.0
 23
-43.30127
 33
355.0
  0
3DFACE
  5
B6
100
AcDbEntity
  8
0
  6
CONTINUOUS
100
AcDbFace
 10
-25.0
 20
-43.30127
 30
355.0
 11
-25.0
 21
-43.30127
 31
380.0
 12
0.0
 22
-50.0
 32
380.0
 13
0.0
 23
-50.0
 33
355.0
  0
3DFACE
  5
B7
100
AcDbEntity
  8
0
  6
CONTINUOUS
100
AcDbFace
 10
0.0
 20
-50.0
 30
355.0
 11
0.0
 21
-50.0
 31
380.0
 12
25.0
 22
-43.30127
 32
380.0
 13
25.0
 23
-43.30127
 33
355.0
  0
3DFACE
  5
B8
100
AcDbEntity
  8
0
  6
CONTINUOUS
100
AcDbFace
 10
25.0
 20
-43.30127
 30
355.0
 11
25.0
 21
-43.30127
 31
380.0
 12
43.30127
 22
-25.0
 32
380.0
 13
43.30127
 23
-25.0
 33
355.0
  0
3DFACE
  5
B9
100
AcDbEntity
  8
0
  6
CONTINUOUS
100
AcDbFace
 10
43.30127
 20
-25.0
 30
355.0
 11
43.30127
 21
-25.0
 31
380.0
 12
50.0
 22
0.0
 32
380.0
 13
50.0
 23
0.0
 33
355.0
  0
LINE
  5
BB
100
AcDbEntity
  8
0
  6
CONTINUOUS
100
AcDbLine
 10
50.0
 20
0.0
 30
355.0
 11
50.0
 21
0.0
 31
380.0
  0
CIRCLE
  5
BC
100
AcDbEntity
  8
0
100
AcDbCircle
 39
1.9998
 10
0.0
 20
0.0
 30
10.059994
 40
50.79492
  0
CIRCLE
  5
BD
100
AcDbEntity
  8
0
100
AcDbCircle
 39
1.9998
 10
0.0
 20
0.0
 30
370.059994
 40
50.79492
  0
ENDSEC
  0
SECTION
  2
OBJECTS
  0
DICTIONARY
  5
1A
100
AcDbDictionary
  3
ACAD_GROUP
350
18
  3
ACAD_MLINESTYLE
350
19
  0
DICTIONARY
  5
18
102
{ACAD_REACTORS
330
1A
102
}
100
AcDbDictionary
  0
DICTIONARY
  5
19
102
{ACAD_REACTORS
330
1A
102
}
100
AcDbDictionary
  3
STANDARD
350
1D
  0
MLINESTYLE
  5
1D
102
{ACAD_REACTORS
330
19
102
}
100
AcDbMlineStyle
  2
STANDARD
 70
     0
  3

 62
   256
 51
90.0
 52
90.0
 71
     2
 49
0.5
 62
   256
  6
BYLAYER
 49
-0.5
 62
   256
  6
BYLAYER
  0
ENDSEC
  0
EOF
